PDA

View Full Version : Guitar talk. . .



Pages : 1 2 3 4 5 6 7 8 9 10 11 12 13 14 15 16 17 18 19 20 21 22 23 24 25 26 27 28 29 30 31 32 33 34 35 36 37 38 39 40 41 42 43 44 45 46 47 48 [49] 50 51 52 53 54 55 56 57 58 59 60 61 62 63 64 65 66 67 68 69 70 71 72 73 74 75 76 77 78 79 80 81 82 83 84 85 86 87 88 89 90 91 92 93 94 95 96 97 98 99 100 101 102 103 104 105 106 107 108 109 110 111 112 113 114 115 116 117 118 119 120 121 122 123 124 125 126

Call_of_Ktulu25
30th Dec 2010, 12:19
Ok ba tong gitara na to sa lahat ng genre?

Pwede naman sis....pero i strongly suggest na kung bibili ka ng guitar dapat sana ung nakikita mu at natetest mu ng personal....suntok sa buwan ang bumili online. kasi panu kung pagdating e hindi mu pala gusto ung feel or may defects (kung brand new) or masyado ng worn out (pag 2nd hand)...although pwede mo namang ibalik, ikaw magbabayad ng shipping, hassle pa ung processes....

Another risk e ung shipping, usually USPS yan, swerte ng makadating sayo yan ng buo pa, kasi i heard a lot of negatives sa USPS......na walang pakundangan sa handling ng packages regardless kung anung laman nun, alam ko hindi covered ng paypal ung shipping insurances kasi wala na sa control nila yun.......mas maganda i ship using Fedex or something like that.....un nga lang mas mahal.....pero sure ka naman makakarating ng maayos and in good condition....maraming sub dealer sa mindanao ng Ibanez guitars.....Goodluck sa guitar hunting!!!!

Eto ung mga provincial dealers ng audiophile which carries Ibanez products;

Provincial Dealers
Better Components J. Luna Cor J. dela Cruz Street, Davao City (082) 224 6583
JVS Cagayan de Oro Dr. 3 & 4 CLT Bldg. A. Luna Ext. Cagayan de Oro City (088) 856 8900, 856 8920
JVS Dumaguete Dr. 1 Emor Pinili Bldg. Acias Pinili Street, Dumaguete City (035) 225 3921
Proline Electro System Dr. 8 & 9 Atu Plaza, Duterte Street, Davao City (082) 221 0911
JVS Zamboanga Dr. #2 MIC Bldg., Gov. Camins Avenue, Zamboanga City (062) 990 1028, 926 1279
JVS General Santos Dr. #1 Phil Champion Grace Bldg., Jose Catolico Avenue, General Santos City (083) 552 3820 to 21

Call_of_Ktulu25
30th Dec 2010, 12:42
log out po muna mga sirs!!! till next time ulit....

windrunner24
30th Dec 2010, 16:16
Hi mga masters.......:praise::praise::praise:

dekdek04
30th Dec 2010, 16:47
meron po kayo activation code ng guitar pro 6? :) pamalimali po kc ung mga post ko na thread kya sainyo nlng po ako magtatanong :) baguhan plng po kc ako dito eh

Call_of_Ktulu25
31st Dec 2010, 00:56
Hello mga Sirs, baka matagal akong hindi makapag online so lulubos lubusin ko na share;

@ Sir Wadakil, just in case, makabalik na kyo eto po mga series of share ko regarding how to extend your generic major minor arpeggios sweep picking shapes using exotic or unusual arpeggios;

Eto po isang example ng basic major sweep picking pattern in E major - E G# B
-------------------------16h19p16----------------------------
---------------------17--------------17------------------------
-----------------16----------------------16--------------------
------------18-------------------------------18---------------
---14h19---------------------------------------19p14------
----------------------------------------------------------------

Now try nating i extend by using tapping, lets try EM7 arpeggio;
EM7 - E G# B D#
-------------------------16-19-23t-19-16--------------------
---------------------17----------------------17-------------------
-----------------16-----------------------------16--------------------
------------18-------------------------------------18---------------
---14h19--------------------------------------------19p14------
--------------------------------------------------------------------
Try to figure out yung sarili mong way para makahanap pa ng ibang way para sa EM7, for example you can lower 17th fret to 16th fret sa 2nd string to make E to D#.

How about E7 arpeggio
E7 - E G# B D
Using the same shape above, babaan lang natin ung lhat ng D# to D
-------------------------16-19-22t-19-16--------------------
---------------------15----------------------15-------------------
-----------------16-----------------------------16--------------------
------------18-------------------------------------18---------------
---14h19--------------------------------------------19p14------
--------------------------------------------------------------------

Try to figure out sir etong mga arpeggios na to on your own, then share nyo rin dito sir para malaman din namin ung progress nyo at magkarun din kami idea, malay mo mas makakuha ka pa ng mas madaling way o ibang pattern.

Eto po;
E7sus4 - E A B D
Em+M7 - E G B D#
E7b5 - E G# A# D
E7#5 - E G# C D

Happy sweep picking sir!!!:yipee:

Call_of_Ktulu25
31st Dec 2010, 02:09
@ sir wadakil, eto pa po isang lick sa diminished scale using tapping, slides, sweep picking, legato....medyo mahaba po eto kasi inextend ko ung basic diminished arpeggios na shinare ko sa inyo nun....Goodluck sir dito!!!

Edim7 - E G A# C#
------------------------3h6h9t6p3-----------------3sl6h9h12t----------------6h9h12t-9p6-------------
------------------------------------------------------------------------------------------------------------------
--------------3h6h9t---------------9t6p3h6h9t-----------------9t6p3h6h9t------------------12t9p6--
------------------------------------------------------------------------------------------------------------------
----1h4h7t-----------------------------------------------------------------------------------------------------
------------------------------------------------------------------------------------------------------------------
continuation;
---------------------------------6sl9h12h15t-12p9sl12h15h18t-15p12-----------------------------------
-------------------------------------------------------------------------------------------------------------------
---------------------6h9h12t----------------------------------------------------18t-15p12h15h18t--------
------------------------------------------------------------------------------------------------------------------
--10t7p4h7h10t-----------------------------------------------------------------------------------------------
-------------------------------------------------------------------------------------------------------------------
continuation;
--12h15h18t21t-18t-15p12sl15h18h21t24t-21t-18p15sl12h15h18t-15p12----------------------
-------------------------------------------------------------------------------------------------------------------
-----------------------------------------------------------------------------------------------18t-15p12-------
-------------------------------------------------------------------------------------------------------------------
-------------------------------------------------------------------------------------------------------------------
-------------------------------------------------------------------------------------------------------------------
continuation;
------------------------------------------------------------------------------------------------------------------
------------------------------------------------------------------------------------------------------------------
------------------------------------------------------------------------------------------------------------------
------------------------------5h8p5--------------5sl8h11p8-------------------8h11p8--------------------
--16t-13p10sl7---------7----------7--------7---------------10------------10----------10-----------10--
-------------------9p6h9--------------9p6h9--------------------12p9h12-----------------12p9h12-----
continuation;
-------------------------------------------------------------------------------------------------------------------
------------------------------------------------------------------------------------------------------------------
------------------------------------------------------------------------------------------------------------------
--8sl11h14p11----------------------11h14p11---------------------11sl14h17p14----------------------
-------------------13--------------13--------------13--------------13-------------------16-------------16--
-----------------------15p12h15---------------------15p12h15---------------------------18p15p18----
continuation;
---------------------18h21p18-----------18sl15h18p15-----------15sl12h15p12------------12sl9h12p
----------------------------------20----20-------------------17----17-------------------14----14------------
-----------15h18-------------------21--------------------------18--------------------------15----------------
---14h17--------------------------------------------------------------------------------------------------------
--------------------------------------------------------------------------------------------------------------------
--------------------------------------------------------------------------------------------------------------------
continuation;
-9-------------9sl6h9p6------6h9p6--------------------------------------------------------------------------
---11-----11-------------8--8---------8p5--------------5h11p8-------------------8h14p11--------------
--------12------------------9----------------6----------6----------9---------------9------------12-----------
-------------------------------------------------8------8--------------11--------11-----------------14-------
---------------------------------------------------7--7-------------------10--10-----------------------13----
-----------------------------------------------------6------------------------9------------------------------12-
continuation
------------------------------------------------------------------18h21h24t-21p18---------------------------
--------------11h17p14-------------------------14h20p17----------------------------------------------------
----------12--------------15------------------15---------------------------------------15t-12p9-------------
------14---------------------17-----------17--------------------------------------------------------------------
--13----------------------------16----16------------------------------------------------------------------------
-------------------------------------15---------------------------------------------------------------------------
continuation;
--18h21h24t-21p18-------------------------------------------------------------------------------------------
--------------------------------------------------------------------------------------------------------------------
-------------------------15t-12p9-------------------9h12h15t-12p9-----------------9h12h15t-----------
--------------------------------------------------------------------------------------------------------------------
----------------------------------------7t-4p1h4h7t----------------------7t-4p1h4h7t-------------------------
--------------------------------------------------------------------------------------------------------------------
continuation;
--18h21h24t^^^^^-------------------------------------------------------------------------------------------
-------------------------------------------------------------------------------------------------------------------
------------------------------------------------------------------------------------------------------------------
------------------------------------------------------------------------------------------------------------------
-------------------------------------------------------------------------------------------------------------------
------------------------------------------------------------------------------------------------------------------

Ang hirap i tab ng walang gitara ahuhuhu.......kasi tnrace ko to sa virtual fretboard ko e.....hays!!!

Anyways, sna magustuhan nyo po mga Sirs!!!

Call_of_Ktulu25
31st Dec 2010, 02:31
Happy New Year sa inyong lahat!!!:yipee:

kalabaw24
31st Dec 2010, 02:48
bago lang po ako dito,marunong din ako maggitara mga basic palang ang alam ko,nais ko po bumili ng gitara maliit lang ang budget 15k ano po ang maipapayo nyong gitara para sa akin.thanks in advance

Call_of_Ktulu25
31st Dec 2010, 04:40
bago lang po ako dito,marunong din ako maggitara mga basic palang ang alam ko,nais ko po bumili ng gitara maliit lang ang budget 15k ano po ang maipapayo nyong gitara para sa akin.thanks in advance

E sir, welcome po sa thread, electric guitar po ba hanap nyo? Merun kasi ako binebenta e Ibanez GRG170dx, modified na po ciya....

Taga san po kau sir?

Eto po specs kung interesado po kayo;

Basswood body
Maple neck 1 piece/rosewood fretboard
24 medium frets
shark tooth inlays
Dimarzio Super Distortion pickup neck
Dimarzio Fast Track 2 pickup middle
Dimarzio Super Distortion pickup bridge
Bridge type: floating Tremolo FAT 10 bridge, non locking
Custom wiring/switching - you have the ability to switch all pickups on or the two outer humbuckers (neck and bridge), you can also switch the neck and bridge pickup from series to parallel, lots of tonal options by using the 3 push pull pots.
Upgraded electronics (pots, 5 way switches)
Color: Black
Ibanez case included

may kasama rin pong extra Dimarzio X2n pickup complete with box and manual
and AW-3 Auto wah Boss pedal complete with box and manual - cables not included.

For 15k sir ok na rin po, walang scratches or dings sa paint, kasi hindi ko masyadong nagamit at alagang alaga. Sana Sir taga Metro Manila ka rin. Kasi gusto ko ako magdedemo sayo sana para wala kang regrets.

Eto po pics;

Call_of_Ktulu25
31st Dec 2010, 04:50
E sir, welcome po sa thread, electric guitar po ba hanap nyo? Merun kasi ako binebenta e Ibanez GRG170dx, modified na po ciya....

Taga san po kau sir?

Eto po specs kung interesado po kayo;

Basswood body
Maple neck 1 piece/rosewood fretboard
24 medium frets
shark tooth inlays
Dimarzio Super Distortion pickup neck
Dimarzio Fast Track 2 pickup middle
Dimarzio Super Distortion pickup bridge
Bridge type: floating Tremolo FAT 10 bridge, non locking
Custom wiring/switching - you have the ability to switch all pickups on or the two outer humbuckers (neck and bridge), you can also switch the neck and bridge pickup from series to parallel, lots of tonal options by using the 3 push pull pots.
Upgraded electronics (pots, 5 way switches)
Color: Black
Ibanez case included

may kasama rin pong extra Dimarzio X2n pickup complete with box and manual
and AW-3 Auto wah Boss pedal complete with box and manual - cables not included.

For 15k sir ok na rin po, walang scratches or dings sa paint, kasi hindi ko masyadong nagamit at alagang alaga. Sana Sir taga Metro Manila ka rin. Kasi gusto ko ako magdedemo sayo sana para wala kang regrets.

Eto po pics;

More pics;

wadakil
31st Dec 2010, 09:53
hapy new yir sa lahat ng mga tropa ko na d2..
@sir call
tnx po sa mga lesson..
very useful... Wag po sana kau mag sawa mag share hehe...
ganda ng guitara nyo sir ah? Kakaingit hehe..
Next yir ko na praktisin yan..bz dis newyear e..hehe. Ganun din cguro ung iba... Salamat sa effort sa mga tab sir..galing hehe

lesterbagang
31st Dec 2010, 12:23
sir tanung lang..pede ko bang ikabit ung string nung electric guitar sa acoustic guitar?, may nasubukan kasi akong guitara ung tunog nya e kakaiba, buong buo ung tunog tapos d masyado makalangsing...anu kaya string nun?

rolanjun55
31st Dec 2010, 14:24
sir tanung lang..pede ko bang ikabit ung string nung electric guitar sa acoustic guitar?, may nasubukan kasi akong guitara ung tunog nya e kakaiba, buong buo ung tunog tapos d masyado makalangsing...anu kaya string nun?

baka original string un sir... di ata applicable ung pang electric string sa acoustic... pero kaw bahala sir... do at your own risk po...

rolanjun55
31st Dec 2010, 14:32
sa lahat ng mga masters ko dito..

ice9
laxAngel
windrunner
emjiecy
call of ktulu
khenyot
wadakil

at dun sa iba pa.. salamt sa karunungan sini share nyo sken!...
sana di kayo magsawang mag share!!:thumbsup:

:salute:ako sa inyo!...

HAPPY NEW YEAR GUITARTALK!!..

marami pa sana tayong matulungan dito...:newyear::wave::thanks:

ice9
31st Dec 2010, 15:44
Happy new year sa lahat ng tropa sa guitar talk!!!

ice9
1st Jan 2011, 00:05
Happy new year!!!

KhEnYoT
1st Jan 2011, 02:00
Only registered users can see the link.

happy new year mga gitarista, mag ingat sa pag papaputok baka matangal ang pinaka iingat-ingatan na daliri natin. . . hehehe :salute:

jhomphi
1st Jan 2011, 02:23
astiiig!! hahaha. lupet ng forum na to ah.

baguhan pa lng ako sa gitara. haha. mag wa one year pa lng. sana madami ako matutunan dito.

happy new year senyo. >:p paturo akoo mga master. ü

emjheicy
1st Jan 2011, 08:02
HAPPPY NEW YEAR! ! ! ROCK AND ROLL hhahahaha..... musta mga master?? mbabangis n ata kayo a??

jhomphi
1st Jan 2011, 14:05
waaa. parang ang komplikado naman ng mga nkapost dito. hmm. isang scale lng alam ko. tas diko pa alam yung tawag. panu ko ba sisimulan ang pag gigitara ng malupet?

rolanjun55
1st Jan 2011, 14:51
waaa. parang ang komplikado naman ng mga nkapost dito. hmm. isang scale lng alam ko. tas diko pa alam yung tawag. panu ko ba sisimulan ang pag gigitara ng malupet?

constant praktis sir ang sikreto.. at disiplina po sa sarili...wag na wag mong dadayain sarili mo ha?...

try mo i post dito sir ung scale na sinasabi mo po para malaman po namen at matulungan ka po ng mga masters naten dito...:thumbsup:

kalabaw24
1st Jan 2011, 16:21
More pics;

Thanks sir sa mga attachment kulang pala ko sa info about dun sa nilagay ko,more on acoustic po ako,hehe.ok din ang electric kaso dami pa sinesetup kapag electric lalo na kapag sa inuman.hehe.
Laguna area po ako,baka may tip kayo sa magandang acoustic para saken.
Type ko gibson kaso ang mahal.haha.
Ibanez naman ang hirap matimingan sa mall yung mga dinidisplay nila ay palaging reserve,
Ayoko na po ng lumanog level up naman.hehe.

dave1112
1st Jan 2011, 16:31
hapi new year po sa lahat n g masters. Dami ko natutunan dto. Thank you po!

ice9
1st Jan 2011, 17:27
waaa. parang ang komplikado naman ng mga nkapost dito. hmm. isang scale lng alam ko. tas diko pa alam yung tawag. panu ko ba sisimulan ang pag gigitara ng malupet?

wala pong mga complicated dun sir. Well detailed lang kaya nalito ka. Vacation pa kasi kaya di pa makababad dito. Wait mo sir at iguide kita pagluwas ko. Cheers!

xochiquetzal
1st Jan 2011, 17:56
pa help mga ser di ko po alam mag tune ng guitar since ilang months palang ako gumagamit so... wala akong kakilalang nag gigitara any help para ma tune ko in standard wala rin ako guitar tuner :upset:

jhomphi
1st Jan 2011, 23:50
pa help mga ser di ko po alam mag tune ng guitar since ilang months palang ako gumagamit so... wala akong kakilalang nag gigitara any help para ma tune ko in standard wala rin ako guitar tuner :upset:

Only registered users can see the link.

gayahin mo yung tunog. haha. :thumbsup:

kalabaw24
1st Jan 2011, 23:56
pa help mga ser di ko po alam mag tune ng guitar since ilang months palang ako gumagamit so... wala akong kakilalang nag gigitara any help para ma tune ko in standard wala rin ako guitar tuner :upset:

Bro sa panahon po na ito mejo teki na kahit ata cp me tuner na,makakahelp po yon kung medyo nahihirapan ka po mag tune ng guitar.kaso hindi ko po alam kung san pa nakakad.l nun eh.request ka nalang po sa kabilang forum kahit sa apps na applicable sa cp m0.

ice9
2nd Jan 2011, 07:30
pa help mga ser di ko po alam mag tune ng guitar since ilang months palang ako gumagamit so... wala akong kakilalang nag gigitara any help para ma tune ko in standard wala rin ako guitar tuner :upset:

sir may nagpost ng cp guitar tuner apps sa guitar talk page # 438 check mo po at baka makatulong sayo.

rolanjun55
2nd Jan 2011, 12:34
auz sir ice ahh.. datalyado kahit sa page.. hit na kita.. hehehehe...

baka nextwik pa ako makatambay ulet ng maauz dito...

ice9
3rd Jan 2011, 06:53
auz sir ice ahh.. datalyado kahit sa page.. hit na kita.. hehehehe...

baka nextwik pa ako makatambay ulet ng maauz dito...

heheh...sana lang eh mabasa nya to bago matabunan. Pati ako sir rolan eh pasilip silip lang dito. Next pa din siguro makakabad ng maayos.

archangels
3rd Jan 2011, 08:12
happy new year sa inyong lahat mga idol!!
sorry medyo late na,,ngayon lang kasi ako nakapag on line,,haha!
keep on rockin!! :rock::rock::rock::rock:

ice9
3rd Jan 2011, 08:28
happy new year sa inyong lahat mga idol!!
sorry medyo late na,,ngayon lang kasi ako nakapag on line,,haha!
keep on rockin!! :rock::rock::rock::rock:

happy new year din po sir arc...

LaXangel™
3rd Jan 2011, 12:31
To ALL: HAppy new year nga pala sa lahat ng guitaristas dito sa guitar talk...have a blessed guitar journey at sana wag po sana kayong magsawa sa kakahawak at practice sa mga guitara ninyo mapaclassical guitar,acoustic,electric...may this year 2011 bring more luck, prosperity, and opportunities sa lahat...:pray: :salute::salute:

ice9
3rd Jan 2011, 12:55
To ALL: HAppy new year nga pala sa lahat ng guitaristas dito sa guitar talk...have a blessed guitar journey at sana wag po sana kayong magsawa sa kakahawak at practice sa mga guitara ninyo mapaclassical guitar,acoustic,electric...may this year 2011 bring more luck, prosperity, and opportunities sa lahat...:pray: :salute::salute:

happy new year din po sir LaX!
Di ko pa mahawakan guitar ko kasi nasa province pako.

LaXangel™
3rd Jan 2011, 12:57
happy new year din po sir arc...
KAMUSTA PO ANG NEW YEAR SIR ICE???:yipee:

LaXangel™
3rd Jan 2011, 13:00
happy new year din po sir LaX!
Di ko pa mahawakan guitar ko kasi nasa province pako.
sir ice ok lang po yun sir...happy new year rin po sir sa inyo..san po yung probinsya ninyo sir?:noidea:

ice9
3rd Jan 2011, 13:03
KAMUSTA PO ANG NEW YEAR SIR ICE???:yipee:

ok lang sir LaX! Araw araw na toma at chibugan. Kaw sir?

LaXangel™
3rd Jan 2011, 13:09
ok lang sir LaX! Araw araw na toma at chibugan. Kaw sir?
di ako umi-inom sir hahah tubig juice pwede pa siguro...at kainan..hahah parang tumaba nga ako eh..:lol:

ice9
3rd Jan 2011, 13:25
di ako umi-inom sir hahah tubig juice pwede pa siguro...at kainan..hahah parang tumaba nga ako eh..:lol:

mabuti yan sir. Wag mo na pagaralan uminom.

ice9
3rd Jan 2011, 13:31
sir ice ok lang po yun sir...happy new year rin po sir sa inyo..san po yung probinsya ninyo sir?:noidea:

taga nueva vizcaya nga pala province ko sir LaX! Opposite tayo from north to south.

LaXangel™
3rd Jan 2011, 14:26
mabuti yan sir. Wag mo na pagaralan uminom.


taga nueva vizcaya nga pala province ko sir LaX! Opposite tayo from north to south.
hahah nga sir..ang lalayo nung probinsya ninyo ah...sige sir paki-kamusta lang ako sa pamilya ninyo dyan sir ice..nga pala sir salamat po sir ha..di ako umi-inom sir ng mga alak hahaha good boy po sir..di ko na record sir yung legato exercise kasi yung cp ko under repair po kaya wala akong pang record haha..:lol:

phil8anselmo
3rd Jan 2011, 15:09
mga master ask lang po kung anong the best modes/scale na pwede iapply s metal/rock genre?nag stick kasi ako sa pentatonic at blues scale..Para may bago at may mapag aralan...Thanks po.. \m/

monlyone_raf
3rd Jan 2011, 17:22
mga sires, pwede po bang makihingi ng pabor d2 sa thread nyo? alam kong madaming may talento sa pagtugtog d2. hindi po kc ako makahanap ng chords sa kantang to kaya kung sino po ung marunong kumapa, pwede po bang paki ito? Only registered users can see the link. [Miracle by Tricia Amper]


kailangan lang po tlaga. para sa 25th wedding anniv ng pastor namin sa church. sana po may makatulong. God bless sa inyong lahat.

windrunner24
3rd Jan 2011, 18:55
Magandang gabi sa inyo mga kuya masters.

ice9
3rd Jan 2011, 19:31
mga master ask lang po kung anong the best modes/scale na pwede iapply s metal/rock genre?nag stick kasi ako sa pentatonic at blues scale..Para may bago at may mapag aralan...Thanks po.. \m/

depende po sir sa gusto mong tugtugin kasi mode po ang nagseset ng mood and color ng songs. Kung gusto mo masaya eh use major scale. Pag eerie sounding naman eh phrygian mode and harmonic minor naman kung dark and evil sounding...

ice9
3rd Jan 2011, 19:39
mga sires, pwede po bang makihingi ng pabor d2 sa thread nyo? alam kong madaming may talento sa pagtugtog d2. hindi po kc ako makahanap ng chords sa kantang to kaya kung sino po ung marunong kumapa, pwede po bang paki ito? Only registered users can see the link. [Miracle by Tricia Amper]


kailangan lang po tlaga. para sa 25th wedding anniv ng pastor namin sa church. sana po may makatulong. God bless sa inyong lahat.

attach ka sir ng mp3 kahit compressed para madali download sa cp at try ko kung kaya ko kapain.

ice9
3rd Jan 2011, 20:05
Magandang gabi sa inyo mga kuya masters.

happy new year sis wind...

jhomphi
4th Jan 2011, 02:07
mga master!! pano ko ba simulan? haha. marunong ako mag strum. marunong din mag pluck. alam ko din notes kada fret. kaso di ko alam yang mga scaling na yan. :dance:

jhasm
4th Jan 2011, 02:13
Good evening sa lahat :P

melala
4th Jan 2011, 02:29
Sana may magpost din dito ebook tungkol sa power chords gusto ko talaga mapag aralan. Beginner palang po.

ice9
4th Jan 2011, 08:03
mga master!! pano ko ba simulan? haha. marunong ako mag strum. marunong din mag pluck. alam ko din notes kada fret. kaso di ko alam yang mga scaling na yan. :dance:

try mo sir gumamit ng mga backing tracks para may accompaniment ka sa paggamit mo ng scale. Lets say A major scale gagamitin mo eh kumuha ka backing track in A major key. Kalabitin mo lang muna ng mabagal kahit 2 notes at isabay mo sa beat. Papasok lahat ng notes ng major scale dyan basta sabay mo lang sa rhythm.

ice9
4th Jan 2011, 08:05
Good evening sa lahat :P

welcome to guitar talk sis...

ice9
4th Jan 2011, 08:10
Sana may magpost din dito ebook tungkol sa power chords gusto ko talaga mapag aralan. Beginner palang po.

gamitin mo lang sis yung 3 low notes sa E,A,D ng isang full chord eh power chord na yun. Use distortion or overdrive efx with matching palm muting technique.

archangels
4th Jan 2011, 10:31
magandang umaga po sa lahat!! :hello:

LaXangel™
4th Jan 2011, 11:46
good afternoon mga masters!!

LaXangel™
4th Jan 2011, 11:49
Sana may magpost din dito ebook tungkol sa power chords gusto ko talaga mapag aralan. Beginner palang po.
Good aft po,,anu po yung maitutulong ko po sa inyo sis?:lol:

phil8anselmo
4th Jan 2011, 14:10
@ sir ice9..thanks sir...pag aralan ko po ung mga na suggest nyo sken..ngayon palang po kasi ako mag aaral ng modes..Sarap kasi sa pakiramdam pag may bago kang armas..hehe..Keep up the Good Work mga master.. :)

rolanjun55
4th Jan 2011, 14:50
Sana may magpost din dito ebook tungkol sa power chords gusto ko talaga mapag aralan. Beginner palang po.

madali lang po ang power chords ate... eto po a liitle tutorial para sayo.. ex is G major

E=3
A=5
D=5
G=4
B=0
E=0

G major eto,pag gagawin mong power chords ganito na

E=3
A=5
D=0
G=0
B=x
E=x

x=dead string
0=open string

tanggalin mo lng po ung note sa 3rd to 1st string... bale dalawang note na lang... pag sa C major ka naman ibaba mo lng.. bale open na ung 6th string ganito na


E=0
A=3
D=5
G=0
B=x
E=x

pacenxa npoh medyo nahihirapan kase ako mag explain...:lol:

LaXangel™
4th Jan 2011, 14:52
@ sir ice9..thanks sir...pag aralan ko po ung mga na suggest nyo sken..ngayon palang po kasi ako mag aaral ng modes..Sarap kasi sa pakiramdam pag may bago kang armas..hehe..Keep up the Good Work mga master.. :)
tama ka po dun sir!..:excited:

LaXangel™
4th Jan 2011, 14:54
@sir rolan - kamusta po sir ang galin po pala ni sir rolan sis..sundin nyo po yung mga advices nya..

rolanjun55
4th Jan 2011, 14:57
tama ka po dun sir!..:excited:

kamuzta sir lax?

LaXangel™
4th Jan 2011, 15:04
kamuzta sir lax?
ok po lang sir..happy new year po sir balik na lang po ako mamaya sir ha..ingat po kayo busy po ako sir di ako makastay kasi myamya work na naman audit kami ngaun eh..hahaha..paki kamusta na lang po ako sa mga guitartalkers natin..:salute::salute::salute:

rolanjun55
4th Jan 2011, 15:12
@sir rolan - kamusta po sir ang galin po pala ni sir rolan sis..sundin nyo po yung mga advices nya..

auz lang sir.. eto balik sa sirkulasyon..ahahaha...

Call_of_Ktulu25
4th Jan 2011, 17:41
Mga Sirs!!!

Padaan lang po! OT po, grabe double shift ako ngayon!!! Waaaahhhhh! Ganda ng pasok ng taon hehehe....

Quick tip lang po, kung nasa sweep picking na po kayo ngyon (3 string, 4 string, 5 or 6 strings sweep picking)

Imbis na ung right hand nyo e pa downward and upward motion. Try po ninyong i strict alternate picking bawat notes.
E minor - E G B
--------------------------7u-12d-7u----------------------
----------------------8d---------------8d-------------------
------------------9u----------------------9u--------------
--------------9d-----------------------------9d------------
----7d-10u-------------------------------------10u-7d----
--------------------------------------------------------------
nilagyan ko po sa taas kung pa up o pa down ung stroke ng guitar pick nyo.......
u = upstroke ng pick
d = downstroke ng pick

Anu pong benefits nito? Madedevelop ung alternate picking nyo most specially pag madalas nagttraverse kau sa ibat ibang strings. Also beneficial eto pag nag sstring skipping kayo.

Ang goal is kung ganu nyo malinis naeexecute and ganu kabilis ung normal sweep picking execution, kelangan mapantayan nyo cya using alternate picking...

Eto po isang example ng string skipping exercise in G major, pwede na rin po etong lick, samahan nyo lang ng mga techniques like legato, pull offs, hammer ons, bends o kaya i extend nyo para maging mas colorful.....pag na praktis nyo ung nasa taas mani na lang sa inyo eto;

G major scale
--------------------------------------12--------------------------------------------------------------------------------
--------------13-------------------------------------------------------13---------------------------------------------10--
--12-14-16----16-14-12-14-16-----16-14-12-12-14-16-----16-14-12-14-16-11-12-14-9-11-12-----
------------------------------------------------------------------------------------------------------------------------
-------------------------------------------------------------------------------------------------------------------------
-------------------------------------------------------------------------------------------------------------------------
continuation;
-----------------8---------------------------------------------------------------------------5----------------7----------------5-
---------------------------------------10------------------------------------------------------------------------------------
--12-11-9-12---12-11-9-11-12------12-11-9-11-12-7-9-11-5-7-9-5-7-9-----9-7-5-7-9------9-7-5-7-9---
------------------------------------------------------------------------------------------------------------------------------
-------------------------------------------------------------------------------------------------------------------------------
--------------------------------------------------------------------------------------------------------------------------------
continuation;
--------------------------|
--------------------------|
--9-7-5-7-9-^^^^^|
--------------------------|
--------------------------|
--------------------------|

Call_of_Ktulu25
4th Jan 2011, 20:55
Mga sirs share ko lang etong guitar fretboard with notes for reference ng mga beginners para hindi na sila maghahanap sa internet;

Call_of_Ktulu25
4th Jan 2011, 21:32
Power Chords Galore;
Baka po naboboring na po kayo sa basic power chords nyo that consist of the root and the 5th note; pwede rin po nating i extend ung power chords natin using additional notes, or replace the 5th by another note of the scale;

For example eto po ang A major scale;
A B C# D E F# G# A
A5 - power chord - A E
5th fret
E------------|--------------|--------------|x
B------------|--------------|--------------|x
G------------|--------------|--------------|x
D------------|--------------|--------------|x
A------------|--------------|------o-------|
E------o-----|--------------|-------------|

or
5th fret
E------------|--------------|--------------|x
B------------|--------------|--------------|x
G------------|--------------|--------------|x
D------------|--------------|------o------|
A------------|--------------|------o-------|
E------o-----|--------------|-------------|

Now bakit hindi natin palitan ung 5th ng for example ng 4th (which is the D note). So nagharmonize tayo in perfect 4ths sa power chords natin...mas heavy sounding eto mga tol.....un nga lang medyo muddy sa distortion, bawasan nyo lang bass ng equalizer nyo...ang bigat nito sa dibdib pag naka 7 string guitar po kayo....naglalangitngitan ung lahat ng mga nakasabit sa bahay at nagrarattle lahat ng mga metal objects at higit sa lahat parang sasabog na speaker ng amplifier nyo....medyo ingat2 lang sa volume po.......
A D
5th fret
E------------|--------------|--------------|x
B------------|--------------|--------------|x
G------------|--------------|--------------|x
D------------|--------------|--------------|x
A------o-----|--------------|-------------|
E------o-----|--------------|-------------|

or
5th fret
E------------|--------------|--------------|x
B------------|--------------|--------------|x
G------------|--------------|--------------|x
D------------|--------------|-------o------|
A------o-----|--------------|-------------|
E------o-----|--------------|-------------|

Or why not gamitin natin ung major and minor thirds para ma establish natin kung major or minor yung power chords;
A major power chord - A C#
4th fret
E------------|--------------|x
B------------|--------------|x
G------------|--------------|x
D------------|--------------|x
A-----o------|--------------|
E------------|-------o------|

A minor power chord - A C
3rd fret
E------------|--------------|------------|x
B------------|--------------|------------|x
G------------|--------------|------------|x
D------------|--------------|------------|x
A-----o------|--------------|------------|
E------------|--------------|------o-----|

Ideas lang po eto mga sirs at pwede nyo pa i expand ang imagination nyo to create more unusual power chords.

You can also use the other degree of the scale like 7th, 9th un nga lang medyo wide stretches na pero posible lalo na sa higher frets.

Thanks!

xochiquetzal
4th Jan 2011, 23:03
mga ser pahingi po ako ng chords or tabs ng new perspective panic at the disco :D naprapractice plang po begginer

rolanjun55
4th Jan 2011, 23:10
mga ser pahingi po ako ng chords or tabs ng new perspective panic at the disco :D naprapractice plang po begginer

pa attach ng song na dito yan sir..nka cp mode po kase..para ma sipra naten...

kalboyet
5th Jan 2011, 00:04
alin po dito sa dalawa ang mas maiging bilhin at gamitin?
Digitech RP200 (3,500)
Only registered users can see the link. 009_n.jpg

o eto
Korg AX1500g (5,000)
Only registered users can see the link.

nagbasa na ako sa google
kaso mas gusto ko yung galing mismo dito
sa mga kapwa ko Pilipino...naks...hihihi

mga nakatry na po sa both effects
ano mas ok? ano masasabi nyo?

help me choose between the two
wag ng isipin yung price
pareho namang swak sa budget ko...salamat!!!

melala
5th Jan 2011, 01:32
Salamat po sa mga nagreply, kaya lang hindi ko pa po nattry yung suggestions kasi medyo busy pa po sa pagtuturo. Pero thanks po sa mabilis na reply. Iffollow ko lang 2ng thread for more tuts. Ü Salamat tlga. I'll hit thanks when I get back. Gudnyt!

LaXangel™
5th Jan 2011, 08:27
alin po dito sa dalawa ang mas maiging bilhin at gamitin?
Digitech RP200 (3,500)
Only registered users can see the link. 009_n.jpg

o eto
Korg AX1500g (5,000)
Only registered users can see the link.

nagbasa na ako sa google
kaso mas gusto ko yung galing mismo dito
sa mga kapwa ko Pilipino...naks...hihihi

mga nakatry na po sa both effects
ano mas ok? ano masasabi nyo?

help me choose between the two
wag ng isipin yung price
pareho namang swak sa budget ko...salamat!!!
i'll go with the korg dahil sa kanyang ease to use po na 5 effect chains Drive - Cabinet - Modulation - Pedal - Ambiance mayroon po itong 48 presets at 48 din po user patches..napakinggan ko na po yung tunog nito pero hindi ko pa po nagamit dahil ang damot nung friend ka pagdating sa kanyang efx and gears pero yung ginagamit ko po ay yung zoom G1xn..pero sakin lang sir kasi Korg lang yung nafamiliar so sa Korg po ako..Hope it'll help..:lol:

ice9
5th Jan 2011, 09:26
@ sir ice9..thanks sir...pag aralan ko po ung mga na suggest nyo sken..ngayon palang po kasi ako mag aaral ng modes..Sarap kasi sa pakiramdam pag may bago kang armas..hehe..Keep up the Good Work mga master.. :)

you're welcome po sir. Practice makes perfect kaya pagtyagaan mo at sure na huhusay ka. Cheers!

rolanjun55
5th Jan 2011, 09:40
you're welcome po sir. Practice makes perfect kaya pagtyagaan mo at sure na huhusay ka. Cheers!

kamuzta sir ice?... Balik serkulasy0n kna rin ba?...

LaXangel™
5th Jan 2011, 09:52
wow online si sir ice at sir rolan hahaha..kamusta po mga masters?

ice9
5th Jan 2011, 09:54
kamuzta sir ice?... Balik serkulasy0n kna rin ba?...

bat nawala si sir rolan? Umexit lang ako kasi napupuno na ram ng cp ko. Nakaluwas nako sir kaya pwede na uli tumambay dito.

ice9
5th Jan 2011, 09:58
wow online si sir ice at sir rolan hahaha..kamusta po mga masters?

balik manila na uli sir LaX kaya balik uli dito. Musta vacation sir?

LaXangel™
5th Jan 2011, 10:03
bat nawala si sir rolan? Umexit lang ako kasi napupuno na ram ng cp ko. Nakaluwas nako sir kaya pwede na uli tumambay dito.
baka nagloko yung connection sir samin nga yung internet nagloloko rin hay naku..maya maya inventory po kami ulit kasi sir kasi auditing po eh para sa beginning balance po sir..pero i find time to bond with my guitar every night.:lol:ikaw sir?

ice9
5th Jan 2011, 10:03
mga ser pahingi po ako ng chords or tabs ng new perspective panic at the disco :D naprapractice plang po begginer

@ sir LaX
alam mo ba to sir? Pakiprovide naman kay sir para magamit nya tutal nakapc ka. Thanks!

LaXangel™
5th Jan 2011, 10:08
balik manila na uli sir LaX kaya balik uli dito. Musta vacation sir?
Vacation sir? Ok lang naman sir haha..pero parang ambilis lang nga eh..hahaha..nga pala sir yung electric ko po wala po siyang pick guard eh anu po yung magandang gawin dun para maprotect po yung body nya from gasgas?:help:

ice9
5th Jan 2011, 10:08
baka nagloko yung connection sir samin nga yung internet nagloloko rin hay naku..maya maya inventory po kami ulit kasi sir kasi auditing po eh para sa beginning balance po sir..pero i find time to bond with my guitar every night.:lol:ikaw sir?

siguro nga kasi kahit sa cp medyo di pa stable. Buti ka nga sir eh nakapagguitar, ako eh iniwan ko kasi hirap magbyahe pag may bitbit na guitar kaya un pagdating ko kagabi eh nagbonding kami agad at nakatikim sya ng chromatic licks heheheh..

ice9
5th Jan 2011, 10:15
Vacation sir? Ok lang naman sir haha..pero parang ambilis lang nga eh..hahaha..nga pala sir yung electric ko po wala po siyang pick guard eh anu po yung magandang gawin dun para maprotect po yung body nya from gasgas?:help:

wala din pick guard tong guitar ko sir pero wala naman gasgas. Nasa style siguro ng picking kasi di masyado magalaw picking hand ko sa pagguitar. More on speed kasi tugtog ko kaya di gano lumalayo sa strings pick ko. One thing pa pala sir na practice mo itukod sa body un pinky ng picking hand mo para may guide at stable lalo na sa mga lightning fast licks.

LaXangel™
5th Jan 2011, 10:18
NEW PERSPECTIVE
As recorded by Panic! at the Disco
(From the 2009 Album JENNIFER'S BODY: ORIGINAL MOTION PICTURE SOUNDTRACK)

Transcribed by Pablo Gómez


Words and Music by Brendon Urie

Gtr I (E A D G B E) - 'Distortion 1'
Gtr II (E A D G B E) - 'Distortion 2'
Gtr III (E A D G B E) - 'Piano'
Gtr IV (E A D G B E) - 'Vibraphone'

Intro
Q=170
4/4
Gtr I
E E E E E E Q E E E E E E E E E E E E E E Q E E E E E E E E
|----------------|-----------------|----------------|------------------|
|-3---3-3-3-3-3--|-3-3-3---3---3---|-3---3-3-3-3-3--|-3-3-3-3-3-3-3-3--|
|-4---5-5-5-4-5--|-2-2-2---2---2---|-4---5-5-5-4-5--|-2-2-2-2-2-2-2-2--|
|-5---5-5-5-5-5--|-0-0-0---0---0---|-5---5-5-5-5-5--|-0-0-0-0-0-0-0-0--|
|-----3-3-3---3--|-----------------|-----3-3-3---3--|------------------|
|----------------|-----------------|----------------|------------------|
|
| Gtr II
| E E E E E E Q E E E E E E E E E E E E E E Q E E E E E E E E
|-7---5-5-5-3-3--|-0-3-0---5---3---|-7---5-5-5-3-3--|-0-3-0---5---3----|
|-8---5-5-5-3-3--|-0-3-0---5---3---|-8---5-5-5-3-3--|-0-3-0---5---3----|
|----------------|-----------------|----------------|------------------|
|----------------|-----------------|----------------|------------------|
|----------------|-----------------|----------------|------------------|
|----------------|-----------------|----------------|------------------|


E E E E E E Q E E E E E E E E
|----------------|-----------------|
|-3---3-3-3-3-3--|-3-3-3---3---3---|
|-4---5-5-4-5-5--|-2-2-2---2---2---|
|-5---5-5-5-5-5--|-0-0-0---0---0---|
|-----3-3---3-3--|-----------------|
|----------------|-----------------|
|
| E E E E E E Q E E E E E E E E
|-7---5-5-5-3-3--|-0-3-0---5---3---|
|-8---5-5-5-3-3--|-0-3-0---5---3---|
|----------------|-----------------|
|----------------|-----------------|
|----------------|-----------------|
|----------------|-----------------|


E E E E E E Q E E E E E E E E
|----------------|---------------------------|
|-3---3-3-3-3-3--|-3-3-3-3--3-3--3---3-------|
|-4---5-5-4-5-5--|-2-2-2-2--2-2--2---2-------|
|-5---5-5-5-5-5--|-0-0-0-0--0-0--0---0-------|
|-----3-3---3-3--|---------------------------|
|----------------|---------------------------|
|
| ~~~
| E E E E E E Q E E E E Q E +T S.
|-7---5-5-5-3-3--|-0-3-0---------------------|
|-8---5-5-5-3-3--|-0-3-0---12---13-(13)-12---|
|----------------|---------------------------|
|----------------|---------------------------|
|----------------|---------------------------|
|----------------|---------------------------|


E E E E E E Q E E E E E E E E E E E E E E Q E E E E E E E E
|-------------------|-----------------|----------------|-----------------||
|---3----3-3-3-3-3--|-3-3-3---3---3---|-3---3-3-3-3-3--|-3-3-3-3-3-3-3-3-||
|---4----5-5-4-5-5--|-2-2-2---2---2---|-4---5-5-4-5-5--|-2-2-2-2-2-2-2-2-||
|---5----5-5-5-5-5--|-0-0-0---0---0---|-5---5-5-5-5-5--|-0-0-0-0-0-0-0-0-||
|--------3-3---3-3--|-----------------|-----3-3---3-3--|-----------------||
|-------------------|-----------------|----------------|-----------------||
|
| ~~~~
| +W E E E E E E E E E E E E E E Q E E E E E E E E
|-------------------|-0-3-0---5---3---|-7---5-5-5-3-3--|-0-3-0---5---3---||
|-(12)--------------|-0-3-0---5---3---|-8---5-5-5-3-3--|-0-3-0---5---3---||
|-------------------|-----------------|----------------|-----------------||
|-------------------|-----------------|----------------|-----------------||
|-------------------|-----------------|----------------|-----------------||
|-------------------|-----------------|----------------|-----------------||


Verse
H. +Q W W W
|----------------------|----------------|----------------|----------------|
|----------------------|----------------|----------------|----------------|
|-/12----------(12)\---|----------------|----------------|----------------|
|----------------------|----------------|----------------|----------------|
|----------------------|----------------|----------------|----------------|
|----------------------|----------------|----------------|----------------|
|
| Q E Q E E E Q E Q E E E Q E Q E E E Q E Q E E E
|---3---3-3--3---3---3-|-0---0-0--0-0-0-|-0---0-0--0-0-0-|----------------|
|---0---0-0--0---0---0-|-0---0-0--0-0-0-|-1---1-1--1-1-1-|-1---1-1--1-1-1-|
|---0---0-0--0---0---0-|-0---0-0--0-0-0-|-0---0-0--0-0-0-|-2---2-2--2-2-2-|
|---0---0-0--0---0---0-|-2---2-2--2-2-2-|-2---2-2--2-2-2-|-1---1-1--1-1-1-|
|---2---2-2--2---2---2-|-2---2-2--2-2-2-|-3---3-3--3-3-3-|----------------|
|---3---3-3--3---3---3-|-0---0-0--0-0-0-|-0---0-0--0-0-0-|----------------|
|
| Gtr III
| H. Q H. Q H. Q H. Q
|---3------------------|-0--------------|-0--------------|----------------|
|---0------------------|-0--------------|-1--------------|-1--------------|
|---0------------0-----|-0----------0---|-0----------0---|-2--------------|
|----------------------|----------------|----------------|-1----------1---|
|----------------------|----------------|----------------|----------------|
|----------------------|----------------|----------------|----------------|


W W W E E E E E E E E
|----------------|----------------|----------------|------------------|
|----------------|----------------|----------------|------------------|
|----------------|----------------|----------------|-9--7-------------|
|----------------|----------------|----------------|------9-7-5-------|
|----------------|----------------|----------------|------------7-5-7-|
|----------------|----------------|----------------|------------------|
|
| Q E Q E E E Q E Q E E E Q E Q E E E Q E Q E E E
|-3---3-3--3-3-3-|-0---0-0--0-0-0-|-0---0-0--0-0-0-|------------------|
|-0---0-0--0-0-0-|-0---0-0--0-0-0-|-1---1-1--1-1-1-|-1----1-1---1-1-1-|
|-0---0-0--0-0-0-|-0---0-0--0-0-0-|-0---0-0--0-0-0-|-2----2-2---2-2-2-|
|-0---0-0--0-0-0-|-2---2-2--2-2-2-|-2---2-2--2-2-2-|-1----1-1---1-1-1-|
|-2---2-2--2-2-2-|-2---2-2--2-2-2-|-3---3-3--3-3-3-|------------------|
|-3---3-3--3-3-3-|-0---0-0--0-0-0-|-0---0-0--0-0-0-|------------------|
|
| H. Q H. Q H. Q H. Q
|-3--------------|-0--------------|-0--------------|------------------|
|-0--------------|-0--------------|-1--------------|-1----------------|
|-0----------0---|-0----------0---|-0----------0---|-2----------------|
|----------------|----------------|----------------|-1------------1---|
|----------------|----------------|----------------|------------------|
|----------------|----------------|----------------|------------------|


E E E E E E E E E E E E E E E E E E E E E E E E E E E E E E E E
|-3----x-x-3---x-x-|-0----x-x-0---x-x-|-0----x-x-0---x-x-|------x-x-----x-x-|
|-0----x-x-0---x-x-|-0----x-x-0---x-x-|-1----x-x-1---x-x-|-1----x-x-1---x-x-|
|-0----x-x-0---x-x-|-0----x-x-0---x-x-|-0----x-x-0---x-x-|-2----x-x-2---x-x-|
|------------------|------------------|------------------|-1--------1-------|
|------------------|------------------|------------------|------------------|
|------------------|------------------|------------------|------------------|
|
| Q E Q E E E Q E Q E E E Q E Q E E E Q E Q E E E
|-3----3-3---3-3-3-|-0----0-0---0-0-0-|-0----0-0---0-0-0-|------------------|
|-0----0-0---0-0-0-|-0----0-0---0-0-0-|-1----1-1---1-1-1-|-1----1-1---1-1-1-|
|-0----0-0---0-0-0-|-0----0-0---0-0-0-|-0----0-0---0-0-0-|-2----2-2---2-2-2-|
|-0----0-0---0-0-0-|-2----2-2---2-2-2-|-2----2-2---2-2-2-|-1----1-1---1-1-1-|
|-2----2-2---2-2-2-|-2----2-2---2-2-2-|-3----3-3---3-3-3-|------------------|
|-3----3-3---3-3-3-|-0----0-0---0-0-0-|-0----0-0---0-0-0-|------------------|
|
| H. Q H. Q H. Q H. Q
|-3----------------|-0----------------|-0----------------|------------------|
|-0----------------|-0----------------|-1----------------|-1----------------|
|-0------------0---|-0------------0---|-0------------0---|-2----------------|
|------------------|------------------|------------------|-1------------1---|
|------------------|------------------|------------------|------------------|
|------------------|------------------|------------------|------------------|


E E E E E E E E E E E E E E E E E E E E E E E E E E E E E E E E
|-3----x-x-3---x-x-|-0----x-x-0---x-x-|-0----x-x-0---x-x-|------------------||
|-0----x-x-0---x-x-|-0----x-x-0---x-x-|-1----x-x-1---x-x-|------------------||
|-0----x-x-0---x-x-|-0----x-x-0---x-x-|-0----x-x-0---x-x-|-9--7-------------||
|------------------|------------------|------------------|------9-7-5-------||
|------------------|------------------|------------------|------------7-5-7-||
|------------------|------------------|------------------|------------------||
|
| Q E Q E E E Q E Q E E E Q E Q E E E Q E Q E E E
|-3----3-3---3-3-3-|-0----0-0---0-0-0-|-0----0-0---0-0-0-|------------------||
|-0----0-0---0-0-0-|-0----0-0---0-0-0-|-1----1-1---1-1-1-|-1----1-1---1-1-1-||
|-0----0-0---0-0-0-|-0----0-0---0-0-0-|-0----0-0---0-0-0-|-2----2-2---2-2-2-||
|-0----0-0---0-0-0-|-2----2-2---2-2-2-|-2----2-2---2-2-2-|-1----1-1---1-1-1-||
|-2----2-2---2-2-2-|-2----2-2---2-2-2-|-3----3-3---3-3-3-|------------------||
|-3----3-3---3-3-3-|-0----0-0---0-0-0-|-0----0-0---0-0-0-|------------------||
|
| H. Q H. Q H. Q H. Q
|-3----------------|-0----------------|-0----------------|------------------||
|-0----------------|-0----------------|-1----------------|-1----------------||
|-0------------0---|-0------------0---|-0------------0---|-2----------------||
|------------------|------------------|------------------|-1------------1---||
|------------------|------------------|------------------|------------------||
|------------------|------------------|------------------|------------------||


Chorus
Gtr II Gtrs I, II
W +W W +H E E E E
|-0----------|-(0)---------|------------|----------------|
|-1----------|-(1)---------|-1----------|-(1)----1-1---0-|
|-0----------|-(0)---------|-2----------|-(2)----2-2---0-|
|-2----------|-(2)---------|-1----------|-(1)----1-1---0-|
|-3----------|-(3)---------|-3----------|-(3)----------2-|
|-0----------|-(0)---------|------------|--------------3-|
|
| Gtr III
| H H H H H H W
|------------|-------------|------------|----------------|
|------------|-------------|------------|----------------|
|------19----|-14-----9----|-7----16----|--7-------------|
|------------|-------------|------------|----------------|
|------------|-------------|------------|----------------|
|------------|-------------|------------|----------------|


+E E Q Q E E Q Q E E E E +Q Q Q E E E E Q Q E E
|-----------------|-0---0--0-0-0-0-|-(0)--0--0--0-0-|-0--0-0--0--0---|
|-(0)-0-0--0--0-0-|-0---0--0-0-0-1-|-(1)--1--1--1-1-|-1--1-1--1--1-0-|
|-(0)-0-0--0--0-0-|-0---0--0-0-0-0-|-(0)--0--0--0-0-|-2--2-2--2--2-0-|
|-(0)-0-0--0--0-0-|-2---2--2-2-2-2-|-(2)--2--2--2-2-|-1--1-1--1--1-0-|
|-(2)-2-2--2--2-2-|-2---2--2-2-2-3-|-(3)--3--3--3-3-|-3--3-3--3--3-2-|
|-(3)-3-3--3--3-3-|-0---0--0-0-0-0-|-(0)--0--0--0-0-|--------------3-|
|
| H. Q H. Q H. Q H. Q
|--3--------------|-0--------------|--0-------------|----------------|
|--0--------------|-0--------------|--1-------------|-1--------------|
|--0----------0---|-0----------0---|--0---------0---|-2--------------|
|-----------------|----------------|----------------|-1----------1---|
|-----------------|----------------|----------------|----------------|
|-----------------|----------------|----------------|----------------|


+E E Q Q E E Q Q E E E E +Q Q Q E E E E Q Q E E
|-----------------|-0---0--0-0-0-0-|-(0)--0--0--0-0-|-0--0-0--0--0---|
|-(0)-0-0--0--0-0-|-0---0--0-0-0-1-|-(1)--1--1--1-1-|-1--1-1--1--1-0-|
|-(0)-0-0--0--0-0-|-0---0--0-0-0-0-|-(0)--0--0--0-0-|-2--2-2--2--2-0-|
|-(0)-0-0--0--0-0-|-2---2--2-2-2-2-|-(2)--2--2--2-2-|-1--1-1--1--1-0-|
|-(2)-2-2--2--2-2-|-2---2--2-2-2-3-|-(3)--3--3--3-3-|-3--3-3--3--3-2-|
|-(3)-3-3--3--3-3-|-0---0--0-0-0-0-|-(0)--0--0--0-0-|--------------3-|
|
| H. Q H. Q H. Q H. Q
|--3--------------|-0--------------|--0-------------|----------------|
|--0--------------|-0--------------|--1-------------|-1--------------|
|--0----------0---|-0----------0---|--0---------0---|-2--------------|
|-----------------|----------------|----------------|-1----------1---|
|-----------------|----------------|----------------|----------------|
|-----------------|----------------|----------------|----------------|


+Q Q Q E E Q Q E E E E +Q Q Q E E E E Q Q E E
|----------------|-0---0--0-0-0-0-|-(0)--0--0--0-0-|-0--0-0--0--0-0-|
|-(0)--0--0--0-0-|-0---0--0-0-0-1-|-(1)--1--1--1-1-|-1--1-1--1--1-1-|
|-(0)--0--0--0-0-|-0---0--0-0-0-0-|-(0)--0--0--0-0-|-2--2-2--2--2-2-|
|-(0)--0--0--0-0-|-2---2--2-2-2-2-|-(2)--2--2--2-2-|-1--1-1--1--1-1-|
|-(2)--2--2--2-2-|-2---2--2-2-2-3-|-(3)--3--3--3-3-|-3--3-3--3--3-3-|
|-(3)--3--3--3-3-|-0---0--0-0-0-0-|-(0)--0--0--0-0-|----------------|
|
| H. Q H. Q H. Q H. Q
|--3-------------|-0--------------|--0-------------|----------------|
|--0-------------|-0--------------|--1-------------|-1--------------|
|--0---------0---|-0----------0---|--0---------0---|-2--------------|
|----------------|----------------|----------------|-1----------1---|
|----------------|----------------|----------------|----------------|
|----------------|----------------|----------------|----------------|


Q Q Q E E Q Q E E E E +Q Q Q E E E E Q Q E E
|---------------|-0---0--0-0-0-0-|-(0)--0--0--0-0-|-0--0-0--0--0-0-||
|-0---0--0--0-0-|-0---0--0-0-0-1-|-(1)--1--1--1-1-|-1--1-1--1--1-1-||
|-0---0--0--0-0-|-0---0--0-0-0-0-|-(0)--0--0--0-0-|-2--2-2--2--2-2-||
|-0---0--0--0-0-|-2---2--2-2-2-2-|-(2)--2--2--2-2-|-1--1-1--1--1-1-||
|-2---2--2--2-2-|-2---2--2-2-2-3-|-(3)--3--3--3-3-|-3--3-3--3--3-3-||
|-3---3--3--3-3-|-0---0--0-0-0-0-|-(0)--0--0--0-0-|----------------||
|
| H. Q H. Q H. Q H. Q
|-3-------------|-0--------------|--0-------------|----------------||
|-0-------------|-0--------------|--1-------------|-1--------------||
|-0---------0---|-0----------0---|--0---------0---|-2--------------||
|---------------|----------------|----------------|-1----------1---||
|---------------|----------------|----------------|----------------||
|---------------|----------------|----------------|----------------||


Intro 2
E E E E E E Q E E E E E E E E
|----------------|-----------------|
|-3---3-3-3-3-3--|-3-3-3---3---3---|
|-4---5-5-5-4-5--|-2-2-2---2---2---|
|-5---5-5-5-5-5--|-0-0-0---0---0---|
|-----3-3-3---3--|-----------------|
|----------------|-----------------|
|
| Gtr II
| E E E E E E Q E E E E E E E E
|-7---5-5-5-3-3--|-0-3-0---5---3---|
|-8---5-5-5-3-3--|-0-3-0---5---3---|
|----------------|-----------------|
|----------------|-----------------|
|----------------|-----------------|
|----------------|-----------------|


E E E E E E Q E E E E E E E E
|----------------|---------------------------|
|-3---3-3-3-3-3--|-3-3-3-3--3-3--3---3-------|
|-4---5-5-5-4-5--|-2-2-2-2--2-2--2---2-------|
|-5---5-5-5-5-5--|-0-0-0-0--0-0--0---0-------|
|-----3-3-3---3--|---------------------------|
|----------------|---------------------------|
|
| ~~~
| E E E E E E Q E E E E Q E +T S.
|-7---5-5-5-3-3--|-0-3-0---------------------|
|-8---5-5-5-3-3--|-0-3-0---12---13-(13)-12---|
|----------------|---------------------------|
|----------------|---------------------------|
|----------------|---------------------------|
|----------------|---------------------------|


E E E E E E Q E E E E E E E E E E E E E E Q E E E E E E E E
|-------------------|-----------------|----------------|-----------------||
|---3----3-3-3-3-3--|-3-3-3---3---3---|-3---3-3-3-3-3--|-3-3-3-3-3-3-3-3-||
|---4----5-5-5-4-5--|-2-2-2---2---2---|-4---5-5-5-4-5--|-2-2-2-2-2-2-2-2-||
|---5----5-5-5-5-5--|-0-0-0---0---0---|-5---5-5-5-5-5--|-0-0-0-0-0-0-0-0-||
|--------3-3-3---3--|-----------------|-----3-3-3---3--|-----------------||
|-------------------|-----------------|----------------|-----------------||
|
| ~~~~
| +W E E E E E E E E E E E E E E Q E E E E E E E E
|-------------------|-0-3-0---5---3---|-7---5-5-5-3-3--|-0-3-0---5---3---||
|-(12)--------------|-0-3-0---5---3---|-8---5-5-5-3-3--|-0-3-0---5---3---||
|-------------------|-----------------|----------------|-----------------||
|-------------------|-----------------|----------------|-----------------||
|-------------------|-----------------|----------------|-----------------||
|-------------------|-----------------|----------------|-----------------||


Verse 2
H. +Q W
|------------------------|------------------|
|------------------------|------------------|
|-/12------------(12)\---|------------------|
|------------------------|------------------|
|------------------------|------------------|
|------------------------|------------------|
|
| E E E E E E E E E E E E E E E E
|------------------------|------------------|
|---0--0-0-0-0-0-------0-|-0--0-0-0-0-0---0-|
|---0--0-0-0-0-0-------0-|-0--0-0-0-0-0---0-|
|---0--0-0-0-0-0-------0-|-2--2-2-2-2-2---2-|
|---2--2-2-2-2-2-------2-|-2--2-2-2-2-2---2-|
|---3--3-3-3-3-3-------3-|-0--0-0-0-0-0---0-|
|
| Gtr III
| H. Q H. Q
|---3--------------------|-0----------------|
|---0--------------------|-0----------------|
|---0--------------0-----|-0------------0---|
|------------------------|------------------|
|------------------------|------------------|
|------------------------|------------------|


W W
|------------------|------------------|
|------------------|------------------|
|------------------|------------------|
|------------------|------------------|
|------------------|------------------|
|------------------|------------------|
|
| E E E E E E E E E E E E E E E E
|------------------|------------------|
|-1--1-1-1-1-1---1-|-1--1-1-1-1-1---1-|
|-0--0-0-0-0-0---0-|-2--2-2-2-2-2---2-|
|-2--2-2-2-2-2---2-|-1--1-1-1-1-1---1-|
|-3--3-3-3-3-3---3-|-3--3-3-3-3-3---3-|
|-0--0-0-0-0-0---0-|------------------|
|
| H.

ice9
5th Jan 2011, 10:33
@ sir LaX
thanks!

@ sir xoch
request granted ka na sir through the effort of sir LaX. You can thanked him by simply hitting his button para naman po sipagin mga members na tumulong. Enjoy!

ice9
5th Jan 2011, 10:39
Sige sir LaX at mukhang busy ka pa. Balik nalang din ako mamaya. Thanks!

rolanjun55
5th Jan 2011, 12:49
@ sir LaX
thanks!

@ sir xoch
request granted ka na sir through the effort of sir LaX. You can thanked him by simply hitting his button para naman po sipagin mga members na tumulong. Enjoy!

cnxa na guyz,bg5a ako nwla kanina... Busy onte eh... Myang hap0n nlng ako balik!

wadakil
5th Jan 2011, 18:30
kamusta mga master?
mga guitar gurus hehe..

Call_of_Ktulu25
6th Jan 2011, 00:36
Hi Mga Sirs!!! Mga masters!!!

Call_of_Ktulu25
6th Jan 2011, 02:58
Mga Sirs!!!

Ahm share lang po ako kung panu ma figure out kung anung mga chords ang pasok sa isang scale....at anu ung mga usual chord progressions....

For example major scale ng E
E F# G# A B C# D# E

Since E major scale tayo, it is safe to say na ung root (E) e dapat major chord. Pakireview po ung anatomy of chords on page 439 para hindi po kayo malito sa mga pinagsasabi ko dito....that is about the basic chord triads (major, minor, diminished, and augmented) at kung panu nafifigure out kung major or minor ung chord...

First triad sa taas ay;
E - E G# B - since ung distance ng root sa 3rd e apat na frets, major chord ang E.

2nd triad - what i mean is magcimula kayo sa F# then kunin ung 3rd and 5th from F#
F# - F# A C# - since ung distance ng root sa 3rd e tatlong frets, minor chord ang F# natin

3rd triad - this time magcmula tayo sa G# then kunin ung 3rd and 5th from G#
G# B D# - since ung distance ng root sa 3rd e tatlong frets, minor chord ang G# natin


4th triad - start from A then kunin ung 3rd and 5th from A
A C# E - since ung distance ng root sa 3rd e apat na frets, major chord ang A natin

5th triad - start from B then kunin yung 3rd and 5th from B
B D# F# - since ung distance ng root sa 3rd e apat na frets, major chord ang B natin

6th triad - start from C# then kunin yung 3rd and 5th from C#
C# E G# - since ung distance ng root sa 3rd e tatlong frets, minor chord and C# natin

7th triad - start from D# then kunin yung 3rd and 5th from D#
D# F# A - since ung distance ng root sa 3rd e tatlong frets, minor chord and D# natin - but wait!!! take a look ung 5th which is A, ang 5th dapat ng normal na D# chord e A#. Ibig sabihin we have a flat 5th....so diminished ang D# natin....

Hint:
mapapansin nyo po na lahat ng scale, mapa major or natural minor, harmonic minor, melodic minor scale pare pareho ang 5th at 4th notes. Let me list it here...
E major scale
E F# G# A B C# D# E

E natural minor scale
E F# G A B C D E

E harmonic minor scale
E F# G A B C D# E

E melodic minor scale
E F# G A B C# D# E

Napansin nyo po na pare pareho lang ung 5th and 4th notes. Kaya po tinawag silang perfect 4ths and perfect 5ths. So kung gusto nyong malaman ang 5th ng isang scale regardless kung major or minor yung scale. for example sa E note, gawin nyo ung power chord nya. ung 2nd note ang 5th nya kaya kalimitan tinatawag yung power chord na E5, or A5. In case of E, B ang 5th nya lagi. For example sa A, gawin nyo ung power chord nya sa 5th fret 6th string, yung 2nd note nya ay E which is also the 5th note. For example again, sa D#, gawin nyo ung power chord nya sa 6th fret 5th string, ung 2nd note nya e A# which is also the 5th of any D# scale. So ung D# sa taas kaya naging diminished, we have a minor triad pero ung 5th e flat, imbis na A#, naging A. So diminished chord ang resulta.
Diminished triad - 1 b3 b5

So to summarize, ang mga chords na pasok sa E major scale ay;
E
F#m
G#m
A
B
C#m
D#dim

Hindi ko na po i eexplain kung panu makukuha ung sa minor scale, melodic minor, and harmonic minor. Pareho lang po concept kung panu knuha sa taas ung major scale.
Eto po ung E natural minor scale;
E F# G A B C D E
Eto po mga pasok na chords
Em - obvious naman di ba?
F#dim
G
Am
Bm
C
D

Eto naman po yung E Harmonic Minor Scale;
E F# G A B C D# E
Eto naman po pasok na chords sa harmonic minor
Em
F#dim
Gaug
Am
B
C
D#dim

Eto naman po E melodic minor scale
E F# G A B C# D# E
Eto naman po pasok na chords sa melodic minor
Em
F#m
Gaug
A
B
C#dim
D#dim

Pero kung mamaster nyo ung anatomy of chords you will find out na pwede rin pala etong mga unusual chords nato, for example, balik po tayo sa E mjor scale, Eto po ung mga possible chords na pwede gamitin...
E - E, EM7, E6, E69, EM9, Eadd9, Esus2, Esus4
F# - F#m, F#m7, F#m6, F#m9, F#sus2, F#sus4, F#7sus
G# - G#m, G#m7, G#sus4, G#7sus
A - A, AM7, A6, A69, AM9, Aadd9, Asus2
B - B, B7, B6, B69, Badd9, B13, Bsus2, Bsus4, B7sus
C# - C#m, C#m7, C#m9, C#sus2, C#sus4, C#7sus
D# - D#dim, D#dim7

E natural minor scale
E F# G A B C D E
E - Em, Em7, Em9, Esus2, Esus4, E7sus
F# - F#dim
G - G, GM7, G6, G69, GM9, Gadd9, Gsus2, Gsus4
A - Am, Am7, Am6, Am9, Asus2, Asus4, A7sus
B - Bm, Bm7, Bm6, Bm9, Bsus4, B7sus
C - C, CM7, C6, C69, CM9, Cadd9, Csus2
D - D, D7, D6, D69, D9, Dadd9, D13, Dsus2, Dsus4, D7sus

E Harmonic Minor scale - medyo limited na po tayo dito dahil sa unusual na distance na pinose ng hiramin natin ung 7th ng major scale which is ung D#
E F# G A B C D# E
E - Em, Esus2, Esus4
F# - F#dim, F#dim7
G - Gaug
A - Am, Am7, Am9, Asus2
B - B, B7, Bsus, B7sus
C - C, CM7, C6
D# - D#dim, D#dim7

Next time po ung mga usual chord progressions ng major and minor scale...

Call_of_Ktulu25
6th Jan 2011, 04:06
Para mas maintindihan natin ung Chord Progresssions, i explain ko muna ung mga chord designations sa Music by using Roman numerals;
Pag capital letter ung roman numerals, it means major ang chord
Pag small letter ung roman numerals, it means minor ung chord
Pag small letter ung roman numeral and may bubble sa taas, diminished ung chord
Pag capital letter ung roman numeral then may plus sign sa taas, augmented yung chord

So for example sa E Major scale;
E F# G# A B C# D# E
at ang mga pasok na chords ay;
E
F#m
G#m
A
B
C#m
D#dim

Lagyan natin ng Roman numerals designation;
E - I - kasi major chord
F#m - ii - kasi minor chord
G#m - iii - kasi minor chord
A - IV - kasi major chord
B - V - kasi major chord
C#m - vi - kasi minor chord
D#dim - viio - may bubble po kaya diminished - pasensya na po hindi ko mapaangat ung bubble parang superscript sya....hindi pwede dito sa post

Eto po ung diagram ng Major Key Chord Progression Rules;

The rules are;
1.) Pwede kayo magcimula anywhere and sundan nyo lang ung mga arrows kung sang path gusto nyo.
2.) Hindi pwede bumalik or baligtarin ung chord progression.

So for example pwede ako magcmula sa minor iii then sundan ko ung mga arrows;
iii>vi>ii>V>I
so pag trinanslate natin sa chords ng E major scale, eto un;
G#m>C#m>F#m>B>E

or pwede rin eto at pinaka common
I>V>I - E>B>E
or
I>IV>V>I - E>A>B>E
or common din eto
I>ii>V>I - E>F#m>B>E

Pwede po kayo gumawa ng sarili nyong chord progression, basta stick lang tayo sa rules.

Yung I64 sa diagram, ibig sabihin nyan e ung 2nd inversion ng E major chord, it means ang gagamitin nating bass e yung 5th ng triad which is yung B.
E major chord - E G# B

Parang E/B sa mga songhits - parang E major chord pero ang bass mo e B;
Eto ung E major chord;
E------------|--------------|open string
B------------|--------------|open string
G-----o------|--------------|
D------------|-------o------|
A------------|-------o------|
E------------|--------------| open string
Eto naman ung E/B
E------------|--------------|open string
B------------|--------------|open string
G-----o------|--------------|open string
D------------|-------o------|
A------------|-------o------|
E------------|--------------|x unsounded

ang naging bass natin e ung note B sa A string 2nd fret.

Call_of_Ktulu25
6th Jan 2011, 04:52
Minor Progression rules naman po;
E natural minor scale
E F# G A B C D E
Eto naman po pasok na chords sa E minor scale;
Em
F#dim
G
Am
Bm
C
D

Then lagyan natin ng Roman numeral designations;
Em - i - kasi minor chord
F#dim - iio - kasi diminished chord
G - III - kasi major chord
Am - iv - kasi minor chord
Bm - v - kasi minor chord - actually pwede ring major eto
C - VI - kasi major chord
D - VII - kasi major chord
D#dim - viio - kasi diminished scale - pag ginamit natin ung harmonic minor scale

Eto po ung Minor Chord Progression Diagram

Yung rules po e pareho lang ng sa major scale, you can start anywhere, and you cannot go backwards....

rolanjun55
6th Jan 2011, 09:07
Hi Mga Sirs!!! Mga masters!!!

g0od m0wnin din mga master!... Isang npka useful theories na naman sir call.. Maraming slamat!.. Nag music school kba sir?

xochiquetzal
6th Jan 2011, 09:07
mga ka sb how can i strengthen my fingers kasi pag power chords nag mumute po ung iba eh

ice9
6th Jan 2011, 10:14
mga ka sb how can i strengthen my fingers kasi pag power chords nag mumute po ung iba eh

baka stiff masyado at hindi relaxed mga left hand fingers mo sir. Never let the palm come into contact with the fretboard at sure na magmumute yan pag ganun kasi may sumasayad sa string. Its good din po sir na magkaron ka ng routine finger exercise like chromatic scale to strengthen your left hand fingers and also to develop left and right hand synchronization. Cheers!

ice9
6th Jan 2011, 10:34
@ sir call

nice share master call!

rolanjun55
6th Jan 2011, 10:36
baka stiff masyado at hindi relaxed mga left hand fingers mo sir. Never let the palm come into contact with the fretboard at sure na magmumute yan pag ganun kasi may sumasayad sa string. Its good din po sir na magkaron ka ng routine finger exercise like chromatic scale to strengthen your left hand fingers and also to develop left and right hand synchronization. Cheers!

nice sir ice.. Natap0s din ang araw ng laklakan..hahahaha.. Makakatambay mode nrin ulet..

wadakil
6th Jan 2011, 10:40
yeah! Kamusta mga sir?
@sir call
ok ung music theory nyo about scale proggression me na pulot na naman aqng knowledge... Sa iba kc mala2bo ung explanation e.. English pa...nag aral po ba kau sa music school? Hehe
@sir ice
galing mu din magpaliwanag sir... Hnd pa kc ganun kalawak alam q sa music theory e kunti lang... Mas macpag kc q mg practice kesa mag aral ng theory hehe..

ice9
6th Jan 2011, 10:47
Share ko na din to sa mga nasa modes stage na. Kadalasan pag bago tayo dito e di natin lam kung san ba natin gagamitin ang isang particular mode. Sa experience ko e ito ang easiest to determine whether a mode works over a major or minor chord is to look at the third scale degree in the formula. If the third note is flatted (a flat sign) then the mode works over a minor chord. If the third note is a natural (no flat sign) then the mode works over a major chord. Wala na space sa cp ko kay next post nalang samples.

ice9
6th Jan 2011, 10:51
nice sir ice.. Natap0s din ang araw ng laklakan..hahahaha.. Makakatambay mode nrin ulet..

hahahah! Uo nga eh. Araw araw kaya na toma un kaya nanghina ako. Pati yata fingers ko e nadamay. Pwede na uli tumambay.

rolanjun55
6th Jan 2011, 10:54
Share ko na din to sa mga nasa modes stage na. Kadalasan pag bago tayo dito e di natin lam kung san ba natin gagamitin ang isang particular mode. Sa experience ko e ito ang easiest to determine whether a mode works over a major or minor chord is to look at the third scale degree in the formula. If the third note is flatted (a flat sign) then the mode works over a minor chord. If the third note is a natural (no flat sign) then the mode works over a major chord. Wala na space sa cp ko kay next post nalang samples.

parang ayaw ko muna pag aralan to sir ice... Hehehe... Mag papabilis muna ako ng daliri ko sir...hehehe

rolanjun55
6th Jan 2011, 10:59
hahahah! Uo nga eh. Araw araw kaya na toma un kaya nanghina ako. Pati yata fingers ko e nadamay. Pwede na uli tumambay.

last na ung inum ko kagabi... Hehehe... Makakapag pahinga nrin... Balik sa guitar j0urney sa wakas...